Bad Blood Tab

BAD BLOOD

INTRO
E---------------------------------------------------------------------------------------
B---------------------------------------------------------------------------------------
G---------------------------------------------------------------------------------------
D---------------------------------------------------------------------------------------
A-----------10-----------------------------------------10----------------------12-------
E-10-12-0-0----12-0-12-0-0-10-12-13-12-10-12-10-12-0-0----12-0-12-0-0-10-12-13----13-12-

                                                                     Harm.
E------------------------------------------------------------------------
B------------------------------------------------------------------------
G------------------------------------------------------------------------
D--------------------------------------------------------------------(3)-
A-----------10-------------------------------------------------------(3)-
E-10-12-0-0----12-0-12-0-0-10-12-13-12-10-12-8-8-8-8---7---5---1-1-1-(3)-


RIFF
E---------------------------------------------------------------------------------------
B---------------------------------------------------------------------------------------
G---------------------------------------------------------------------------------------
D---------------------------------------------------------------------------------------
A-----------10-----------------------------------------10----------------------12-------
E-10-12-0-0----12-0-12-0-0-10-12-13-12-10-12-10-12-0-0----12-0-12-0-0-10-12-13----13-12-

                                                                    
E----------------------------------------------------------------------------
B----------------------------------------------------------------------------
G----------------------------------------------------------------------------
D----------------------------------------------------------------------------
A-----------10---------------------------------------------------------------
E-10-12-0-0----12-0-12-0-0-10-12-13-12-10-12-8-8-8-8---7---5---1-1-1-1-1-1-1-


HITS
E-7---7\x---
B-9---9\x---
G-8---8\x---
D-9---9\x---
A-7---7\x---
E-0---0-x---


VERSE 1 (for chords, 'roll' down the strings from low E string to high E string)
E-7-----7-----3-----7-----7---------7-----3-----7-----------------7-----3-----7-----9-7---------7-----3-----
B-9-----7-----3-----9-----9-9-------7-----3-----9-----------9-----7-----3-----9-----7---9-------7-----3-----
G-8-----7-----4-----8-----8---8-----7-----4-----8---------8---8---7-----4-----8-----8-----8-----7-----4-----
D-9-----9-----5-----9-----9-----9---9-----5-----9-------9---------9-----5-----9-----9-------9---9-----5-----
A-7-----9-----5-----7-----7---------9-----5-----7-----7-----------9-----5-----7-----7-----------9-----5-----
E-0-----7-----3-----0-----0---------7-----3-----0-----------------7-----3-----0-----0-----------7-----3-----


PRE-CHORUS
E-------12------12-------10-------------10------7--------7-------------12------12-------10-------------10------7---
B---8---------8------8------8---8---8---------7------7-----7---7---8---------8------8------8---8---8---------7-----
G-9---9-----9------9---9------9---9---9-----9------9---9-----9---9---9-----9------9---9------9---9---9-----9-------
D------------------------------------------------------------------------------------------------------------------
A------------------------------------------------------------------------------------------------------------------
E------------------------------------------------------------------------------------------------------------------


CHORUS (LO-FI)
E----------------------------------------------------------------------------------------------------------------
B----------------------------------------------------------------------------------------------------------------
G----------------------------------------------------------------------------------------------------------------
D----------------------------------------------------------------------------------------------------------------
A-7----------7----------------------------------------7----------5-----------------------------------------------
E----0--0-0-----0--0-0-3--0-0--0-0-0-8--8-8-8-8-3-3-3----0--0-0-----0--0-0-8--8-8--8-8-8-3--10-10-10-10-10-10-10-

                            ¦
CHORUS (MAIN)               v only difference from 'lo fi' chorus
E----------------------------------------------------------------------------------------------------------------
B----------------------------------------------------------------------------------------------------------------
G----------------------------------------------------------------------------------------------------------------
D----------------------------------------------------------------------------------------------------------------
A-7----------7----------------------------------------7----------5-----------------------------------------------
E----0--0-0-----0--0-0-3--0-3--0-0-0-8--8-8-8-8-3-3-3----0--0-0-----0--0-0-8--8-8--8-8-8-3--10-10-10-10-10-10-10-


VERSE 2
E---------------7---------------------------------------------------------------------------
B---------7-9-------9-----7-9-------------7---------7---------------------------------------
G-----8-------8---8---8-------8-------7---------7-----7---7---------4---------------4-------
D---9---9---------------9---------------9-----9---9-----9-------5-----5---5-----5-----5---5-
A-7---------------------------------9-------------------------5---5-----5-----5---5-----5---
E---------------------------------7-------------------------3---------------3---------------

E-------------7-----------------7---------------------------------------------------------------------------
B---------9---9-----------7-9-------9-----7-9-------------7---------7---------------------------------------
G-----8-------8-------8-------8---8---8-------8-------7---------7-----7---7---------4---------------4-------
D---9---9-----9-----9---9---------------9---------------9-----9---9-----9-------5-----5---5-----5-----5---5-
A-7-----------7---7---------------------------------9-------------------------5---5-----5-----5---5-----5---
E-------------0-----------------------------------7-------------------------3---------------3---------------


POST-CHORUS
E-0------0------0-----1-
B-0------0------0-----1-
G-9------11-----x-----2-
D-10-----12-----7-----3-
A-10-----12-----7-----3-
E-8------10-----5-----1-


BRIDGE RIFF
E-------------------------------------------------------------------------
B-------------------------------------------------------------------------
G---------------------------------------------------------7/9-9-9-9\7-7-7-
D-------------------------------------------------------------------------
A-7--------5-----------5----------7--------5--------------5/7-7-7-7\5-5-5-
E----0--7-----7--0--3-----3--5--0----0--7-----7--0--3--5------------------
x
x